ISO-10303-21;
HEADER;
/* Generated by software containing ST-Developer
 * from STEP Tools, Inc. (www.steptools.com) 
 */

FILE_DESCRIPTION(
/* description */ (''),
/* implementation_level */ '2;1');

FILE_NAME(
/* name */ '',
/* time_stamp */ '2025-07-23T16:07:02+07:00',
/* author */ ('zeta-86'),
/* organization */ (''),
/* preprocessor_version */ 'ST-DEVELOPER v19.2',
/* originating_system */ 'Autodesk Inventor 2024',
/* authorisation */ '');

FILE_SCHEMA (('AUTOMOTIVE_DESIGN { 1 0 10303 214 3 1 1 }'));
ENDSEC;

DATA;
#10=MECHANICAL_DESIGN_GEOMETRIC_PRESENTATION_REPRESENTATION('',(#13),#465);
#11=SHAPE_REPRESENTATION_RELATIONSHIP('SRR','None',#472,#12);
#12=ADVANCED_BREP_SHAPE_REPRESENTATION('',(#14),#464);
#13=STYLED_ITEM('',(#481),#14);
#14=MANIFOLD_SOLID_BREP('\X2\04220432043504400434043E0435\X0\ \X2\04420435043B043E\X0\2',
#221);
#15=(
BOUNDED_CURVE()
B_SPLINE_CURVE(2,(#459,#460,#461),.UNSPECIFIED.,.F.,.F.)
B_SPLINE_CURVE_WITH_KNOTS((3,3),(1.27801851341464,1.39901132435309),
 .UNSPECIFIED.)
CURVE()
GEOMETRIC_REPRESENTATION_ITEM()
RATIONAL_B_SPLINE_CURVE((1.,0.995920878319775,0.995496011794148))
REPRESENTATION_ITEM('')
);
#16=(
BOUNDED_SURFACE()
B_SPLINE_SURFACE(2,2,((#432,#433,#434,#435,#436,#437,#438,#439,#440),(#441,
#442,#443,#444,#445,#446,#447,#448,#449),(#450,#451,#452,#453,#454,#455,
#456,#457,#458)),.UNSPECIFIED.,.F.,.T.,.F.)
B_SPLINE_SURFACE_WITH_KNOTS((3,3),(3,2,2,2,3),(1.27801851341464,1.54813889492626),
(-3.14159265358979,-1.5707963267949,0.,1.5707963267949,3.14159265358979),
 .UNSPECIFIED.)
GEOMETRIC_REPRESENTATION_ITEM()
RATIONAL_B_SPLINE_SURFACE(((1.,0.707106781186548,1.,0.707106781186548,1.,
0.707106781186548,1.,0.707106781186548,1.),(0.990893228317051,0.700667321174817,
0.990893228317051,0.700667321174817,0.990893228317051,0.700667321174817,
0.990893228317051,0.700667321174817,0.990893228317051),(1.,0.707106781186548,
1.,0.707106781186548,1.,0.707106781186548,1.,0.707106781186548,1.)))
REPRESENTATION_ITEM('')
SURFACE()
);
#17=CONICAL_SURFACE('',#261,10.75,0.785398163397445);
#18=CONICAL_SURFACE('',#265,12.075,0.785398163397448);
#19=CONICAL_SURFACE('',#271,12.075,0.785398163397448);
#20=B_SPLINE_CURVE_WITH_KNOTS('',3,(#369,#370,#371,#372,#373,#374),
 .UNSPECIFIED.,.F.,.F.,(4,2,4),(-14.6627434630762,-13.9059167548669,-13.1490900534436),
 .UNSPECIFIED.);
#21=B_SPLINE_CURVE_WITH_KNOTS('',3,(#379,#380,#381,#382,#383,#384),
 .UNSPECIFIED.,.F.,.F.,(4,2,4),(13.1490900534695,13.905916754866,14.6627434630487),
 .UNSPECIFIED.);
#22=B_SPLINE_CURVE_WITH_KNOTS('',3,(#388,#389,#390,#391,#392,#393),
 .UNSPECIFIED.,.F.,.F.,(4,2,4),(3.23987257734607,3.32129567695914,3.33896216483482),
 .UNSPECIFIED.);
#23=B_SPLINE_CURVE_WITH_KNOTS('',3,(#394,#395,#396,#397,#398,#399,#400),
 .UNSPECIFIED.,.F.,.F.,(4,3,4),(6.5421766846974,6.64201267723967,6.74225720753301),
 .UNSPECIFIED.);
#24=B_SPLINE_CURVE_WITH_KNOTS('',3,(#401,#402,#403,#404),.UNSPECIFIED.,
 .F.,.F.,(4,4),(3.33896216483482,3.43824934910462),.UNSPECIFIED.);
#25=LINE('',#362,#31);
#26=LINE('',#407,#32);
#27=LINE('',#416,#33);
#28=LINE('',#423,#34);
#29=LINE('',#425,#35);
#30=LINE('',#431,#36);
#31=VECTOR('',#297,11.65);
#32=VECTOR('',#314,10.75);
#33=VECTOR('',#325,12.075);
#34=VECTOR('',#334,12.5);
#35=VECTOR('',#337,12.075);
#36=VECTOR('',#344,13.5);
#37=CYLINDRICAL_SURFACE('',#253,11.65);
#38=CYLINDRICAL_SURFACE('',#260,39.711208814432);
#39=CYLINDRICAL_SURFACE('',#268,12.5);
#40=CYLINDRICAL_SURFACE('',#272,13.5);
#41=TOROIDAL_SURFACE('',#249,12.4,0.75);
#42=FACE_BOUND('',#59,.T.);
#43=FACE_BOUND('',#68,.T.);
#44=FACE_OUTER_BOUND('',#58,.T.);
#45=FACE_OUTER_BOUND('',#60,.T.);
#46=FACE_OUTER_BOUND('',#61,.T.);
#47=FACE_OUTER_BOUND('',#62,.T.);
#48=FACE_OUTER_BOUND('',#63,.T.);
#49=FACE_OUTER_BOUND('',#64,.T.);
#50=FACE_OUTER_BOUND('',#65,.T.);
#51=FACE_OUTER_BOUND('',#66,.T.);
#52=FACE_OUTER_BOUND('',#67,.T.);
#53=FACE_OUTER_BOUND('',#69,.T.);
#54=FACE_OUTER_BOUND('',#70,.T.);
#55=FACE_OUTER_BOUND('',#71,.T.);
#56=FACE_OUTER_BOUND('',#72,.T.);
#57=FACE_OUTER_BOUND('',#73,.T.);
#58=EDGE_LOOP('',(#142));
#59=EDGE_LOOP('',(#143));
#60=EDGE_LOOP('',(#144));
#61=EDGE_LOOP('',(#145,#146,#147,#148,#149));
#62=EDGE_LOOP('',(#150,#151,#152,#153,#154,#155));
#63=EDGE_LOOP('',(#156,#157));
#64=EDGE_LOOP('',(#158,#159));
#65=EDGE_LOOP('',(#160,#161,#162,#163,#164));
#66=EDGE_LOOP('',(#165,#166,#167,#168));
#67=EDGE_LOOP('',(#169));
#68=EDGE_LOOP('',(#170));
#69=EDGE_LOOP('',(#171,#172,#173,#174,#175));
#70=EDGE_LOOP('',(#176,#177,#178,#179,#180,#181));
#71=EDGE_LOOP('',(#182,#183,#184,#185,#186,#187));
#72=EDGE_LOOP('',(#188,#189,#190,#191,#192));
#73=EDGE_LOOP('',(#193,#194,#195,#196,#197,#198,#199,#200,#201));
#74=CIRCLE('',#245,13.5);
#75=CIRCLE('',#246,13.1071067811865);
#76=CIRCLE('',#248,10.5);
#77=CIRCLE('',#250,11.65);
#78=CIRCLE('',#251,0.75);
#79=CIRCLE('',#252,11.65);
#80=CIRCLE('',#254,11.65);
#81=CIRCLE('',#255,11.65);
#82=CIRCLE('',#257,39.711208814432);
#83=CIRCLE('',#259,39.711208814432);
#84=CIRCLE('',#262,11.);
#85=CIRCLE('',#264,11.65);
#86=CIRCLE('',#266,12.5);
#87=CIRCLE('',#267,12.5);
#88=CIRCLE('',#269,12.5);
#89=CIRCLE('',#270,12.5);
#90=CIRCLE('',#273,13.5);
#91=CIRCLE('',#274,13.5);
#92=VERTEX_POINT('',#347);
#93=VERTEX_POINT('',#349);
#94=VERTEX_POINT('',#352);
#95=VERTEX_POINT('',#355);
#96=VERTEX_POINT('',#356);
#97=VERTEX_POINT('',#361);
#98=VERTEX_POINT('',#363);
#99=VERTEX_POINT('',#367);
#100=VERTEX_POINT('',#368);
#101=VERTEX_POINT('',#377);
#102=VERTEX_POINT('',#378);
#103=VERTEX_POINT('',#387);
#104=VERTEX_POINT('',#406);
#105=VERTEX_POINT('',#410);
#106=VERTEX_POINT('',#413);
#107=VERTEX_POINT('',#414);
#108=VERTEX_POINT('',#419);
#109=VERTEX_POINT('',#420);
#110=VERTEX_POINT('',#427);
#111=VERTEX_POINT('',#428);
#112=EDGE_CURVE('',#92,#92,#74,.T.);
#113=EDGE_CURVE('',#93,#93,#75,.T.);
#114=EDGE_CURVE('',#94,#94,#76,.T.);
#115=EDGE_CURVE('',#95,#96,#77,.T.);
#116=EDGE_CURVE('',#96,#93,#78,.T.);
#117=EDGE_CURVE('',#96,#95,#79,.T.);
#118=EDGE_CURVE('',#95,#97,#25,.T.);
#119=EDGE_CURVE('',#97,#98,#80,.T.);
#120=EDGE_CURVE('',#98,#97,#81,.T.);
#121=EDGE_CURVE('',#99,#100,#20,.T.);
#122=EDGE_CURVE('',#100,#99,#82,.T.);
#123=EDGE_CURVE('',#101,#102,#21,.T.);
#124=EDGE_CURVE('',#102,#101,#83,.T.);
#125=EDGE_CURVE('',#102,#103,#22,.T.);
#126=EDGE_CURVE('',#100,#101,#23,.T.);
#127=EDGE_CURVE('',#103,#99,#24,.T.);
#128=EDGE_CURVE('',#94,#104,#26,.T.);
#129=EDGE_CURVE('',#104,#104,#84,.T.);
#130=EDGE_CURVE('',#105,#105,#85,.T.);
#131=EDGE_CURVE('',#106,#107,#86,.T.);
#132=EDGE_CURVE('',#107,#105,#27,.T.);
#133=EDGE_CURVE('',#107,#106,#87,.T.);
#134=EDGE_CURVE('',#108,#109,#88,.T.);
#135=EDGE_CURVE('',#109,#108,#89,.T.);
#136=EDGE_CURVE('',#109,#106,#28,.T.);
#137=EDGE_CURVE('',#108,#98,#29,.T.);
#138=EDGE_CURVE('',#110,#111,#90,.T.);
#139=EDGE_CURVE('',#111,#110,#91,.T.);
#140=EDGE_CURVE('',#111,#92,#30,.T.);
#141=EDGE_CURVE('',#110,#103,#15,.T.);
#142=ORIENTED_EDGE('',*,*,#112,.F.);
#143=ORIENTED_EDGE('',*,*,#113,.T.);
#144=ORIENTED_EDGE('',*,*,#114,.F.);
#145=ORIENTED_EDGE('',*,*,#115,.T.);
#146=ORIENTED_EDGE('',*,*,#116,.T.);
#147=ORIENTED_EDGE('',*,*,#113,.F.);
#148=ORIENTED_EDGE('',*,*,#116,.F.);
#149=ORIENTED_EDGE('',*,*,#117,.T.);
#150=ORIENTED_EDGE('',*,*,#115,.F.);
#151=ORIENTED_EDGE('',*,*,#118,.T.);
#152=ORIENTED_EDGE('',*,*,#119,.T.);
#153=ORIENTED_EDGE('',*,*,#120,.T.);
#154=ORIENTED_EDGE('',*,*,#118,.F.);
#155=ORIENTED_EDGE('',*,*,#117,.F.);
#156=ORIENTED_EDGE('',*,*,#121,.F.);
#157=ORIENTED_EDGE('',*,*,#122,.F.);
#158=ORIENTED_EDGE('',*,*,#123,.F.);
#159=ORIENTED_EDGE('',*,*,#124,.F.);
#160=ORIENTED_EDGE('',*,*,#125,.F.);
#161=ORIENTED_EDGE('',*,*,#124,.T.);
#162=ORIENTED_EDGE('',*,*,#126,.F.);
#163=ORIENTED_EDGE('',*,*,#122,.T.);
#164=ORIENTED_EDGE('',*,*,#127,.F.);
#165=ORIENTED_EDGE('',*,*,#114,.T.);
#166=ORIENTED_EDGE('',*,*,#128,.T.);
#167=ORIENTED_EDGE('',*,*,#129,.T.);
#168=ORIENTED_EDGE('',*,*,#128,.F.);
#169=ORIENTED_EDGE('',*,*,#130,.F.);
#170=ORIENTED_EDGE('',*,*,#129,.F.);
#171=ORIENTED_EDGE('',*,*,#131,.T.);
#172=ORIENTED_EDGE('',*,*,#132,.T.);
#173=ORIENTED_EDGE('',*,*,#130,.T.);
#174=ORIENTED_EDGE('',*,*,#132,.F.);
#175=ORIENTED_EDGE('',*,*,#133,.T.);
#176=ORIENTED_EDGE('',*,*,#134,.F.);
#177=ORIENTED_EDGE('',*,*,#135,.F.);
#178=ORIENTED_EDGE('',*,*,#136,.T.);
#179=ORIENTED_EDGE('',*,*,#133,.F.);
#180=ORIENTED_EDGE('',*,*,#131,.F.);
#181=ORIENTED_EDGE('',*,*,#136,.F.);
#182=ORIENTED_EDGE('',*,*,#134,.T.);
#183=ORIENTED_EDGE('',*,*,#135,.T.);
#184=ORIENTED_EDGE('',*,*,#137,.T.);
#185=ORIENTED_EDGE('',*,*,#119,.F.);
#186=ORIENTED_EDGE('',*,*,#120,.F.);
#187=ORIENTED_EDGE('',*,*,#137,.F.);
#188=ORIENTED_EDGE('',*,*,#138,.F.);
#189=ORIENTED_EDGE('',*,*,#139,.F.);
#190=ORIENTED_EDGE('',*,*,#140,.T.);
#191=ORIENTED_EDGE('',*,*,#112,.T.);
#192=ORIENTED_EDGE('',*,*,#140,.F.);
#193=ORIENTED_EDGE('',*,*,#138,.T.);
#194=ORIENTED_EDGE('',*,*,#139,.T.);
#195=ORIENTED_EDGE('',*,*,#141,.T.);
#196=ORIENTED_EDGE('',*,*,#127,.T.);
#197=ORIENTED_EDGE('',*,*,#121,.T.);
#198=ORIENTED_EDGE('',*,*,#126,.T.);
#199=ORIENTED_EDGE('',*,*,#123,.T.);
#200=ORIENTED_EDGE('',*,*,#125,.T.);
#201=ORIENTED_EDGE('',*,*,#141,.F.);
#202=PLANE('',#244);
#203=PLANE('',#247);
#204=PLANE('',#256);
#205=PLANE('',#258);
#206=PLANE('',#263);
#207=ADVANCED_FACE('',(#44,#42),#202,.F.);
#208=ADVANCED_FACE('',(#45),#203,.F.);
#209=ADVANCED_FACE('',(#46),#41,.T.);
#210=ADVANCED_FACE('',(#47),#37,.T.);
#211=ADVANCED_FACE('',(#48),#204,.F.);
#212=ADVANCED_FACE('',(#49),#205,.T.);
#213=ADVANCED_FACE('',(#50),#38,.F.);
#214=ADVANCED_FACE('',(#51),#17,.F.);
#215=ADVANCED_FACE('',(#52,#43),#206,.T.);
#216=ADVANCED_FACE('',(#53),#18,.T.);
#217=ADVANCED_FACE('',(#54),#39,.T.);
#218=ADVANCED_FACE('',(#55),#19,.T.);
#219=ADVANCED_FACE('',(#56),#40,.T.);
#220=ADVANCED_FACE('',(#57),#16,.F.);
#221=CLOSED_SHELL('',(#207,#208,#209,#210,#211,#212,#213,#214,#215,#216,
#217,#218,#219,#220));
#222=DERIVED_UNIT_ELEMENT(#225,1.);
#223=DERIVED_UNIT_ELEMENT(#467,-3.);
#224=DIMENSIONAL_EXPONENTS(0.,1.,0.,0.,0.,0.,0.);
#225=(
CONVERSION_BASED_UNIT('gram',#227)
MASS_UNIT()
NAMED_UNIT(#224)
);
#226=(
MASS_UNIT()
NAMED_UNIT(*)
SI_UNIT(.KILO.,.GRAM.)
);
#227=MASS_MEASURE_WITH_UNIT(MASS_MEASURE(0.001),#226);
#228=DERIVED_UNIT((#222,#223));
#229=MEASURE_REPRESENTATION_ITEM('density measure',
POSITIVE_RATIO_MEASURE(1.),#228);
#230=PROPERTY_DEFINITION_REPRESENTATION(#235,#232);
#231=PROPERTY_DEFINITION_REPRESENTATION(#236,#233);
#232=REPRESENTATION('material name',(#234),#464);
#233=REPRESENTATION('density',(#229),#464);
#234=DESCRIPTIVE_REPRESENTATION_ITEM('\X2\04220438043F043E0432044B0435\X0\',
'\X2\04220438043F043E0432044B0435\X0\');
#235=PROPERTY_DEFINITION('material property','material name',#474);
#236=PROPERTY_DEFINITION('material property','density of part',#474);
#237=DATE_TIME_ROLE('creation_date');
#238=APPLIED_DATE_AND_TIME_ASSIGNMENT(#239,#237,(#474));
#239=DATE_AND_TIME(#240,#241);
#240=CALENDAR_DATE(2023,9,10);
#241=LOCAL_TIME(11,25,5.,#242);
#242=COORDINATED_UNIVERSAL_TIME_OFFSET(0,0,.BEHIND.);
#243=AXIS2_PLACEMENT_3D('',#345,#275,#276);
#244=AXIS2_PLACEMENT_3D('',#346,#277,#278);
#245=AXIS2_PLACEMENT_3D('',#348,#279,#280);
#246=AXIS2_PLACEMENT_3D('',#350,#281,#282);
#247=AXIS2_PLACEMENT_3D('',#351,#283,#284);
#248=AXIS2_PLACEMENT_3D('',#353,#285,#286);
#249=AXIS2_PLACEMENT_3D('',#354,#287,#288);
#250=AXIS2_PLACEMENT_3D('',#357,#289,#290);
#251=AXIS2_PLACEMENT_3D('',#358,#291,#292);
#252=AXIS2_PLACEMENT_3D('',#359,#293,#294);
#253=AXIS2_PLACEMENT_3D('',#360,#295,#296);
#254=AXIS2_PLACEMENT_3D('',#364,#298,#299);
#255=AXIS2_PLACEMENT_3D('',#365,#300,#301);
#256=AXIS2_PLACEMENT_3D('',#366,#302,#303);
#257=AXIS2_PLACEMENT_3D('',#375,#304,#305);
#258=AXIS2_PLACEMENT_3D('',#376,#306,#307);
#259=AXIS2_PLACEMENT_3D('',#385,#308,#309);
#260=AXIS2_PLACEMENT_3D('',#386,#310,#311);
#261=AXIS2_PLACEMENT_3D('',#405,#312,#313);
#262=AXIS2_PLACEMENT_3D('',#408,#315,#316);
#263=AXIS2_PLACEMENT_3D('',#409,#317,#318);
#264=AXIS2_PLACEMENT_3D('',#411,#319,#320);
#265=AXIS2_PLACEMENT_3D('',#412,#321,#322);
#266=AXIS2_PLACEMENT_3D('',#415,#323,#324);
#267=AXIS2_PLACEMENT_3D('',#417,#326,#327);
#268=AXIS2_PLACEMENT_3D('',#418,#328,#329);
#269=AXIS2_PLACEMENT_3D('',#421,#330,#331);
#270=AXIS2_PLACEMENT_3D('',#422,#332,#333);
#271=AXIS2_PLACEMENT_3D('',#424,#335,#336);
#272=AXIS2_PLACEMENT_3D('',#426,#338,#339);
#273=AXIS2_PLACEMENT_3D('',#429,#340,#341);
#274=AXIS2_PLACEMENT_3D('',#430,#342,#343);
#275=DIRECTION('axis',(0.,0.,1.));
#276=DIRECTION('refdir',(1.,0.,0.));
#277=DIRECTION('center_axis',(0.,1.,0.));
#278=DIRECTION('ref_axis',(0.,0.,1.));
#279=DIRECTION('center_axis',(0.,1.,0.));
#280=DIRECTION('ref_axis',(1.,0.,0.));
#281=DIRECTION('center_axis',(-3.29206127563738E-16,1.,0.));
#282=DIRECTION('ref_axis',(0.,0.,-1.));
#283=DIRECTION('center_axis',(0.,1.,0.));
#284=DIRECTION('ref_axis',(0.,0.,1.));
#285=DIRECTION('center_axis',(0.,1.,0.));
#286=DIRECTION('ref_axis',(1.,0.,0.));
#287=DIRECTION('center_axis',(6.58412255127477E-16,-1.,0.));
#288=DIRECTION('ref_axis',(-1.02934137766007E-13,0.,-1.));
#289=DIRECTION('center_axis',(0.,1.,0.));
#290=DIRECTION('ref_axis',(-1.,0.,0.));
#291=DIRECTION('center_axis',(-1.,-6.58412255127477E-16,1.02832824638284E-13));
#292=DIRECTION('ref_axis',(1.02832824638284E-13,0.,1.));
#293=DIRECTION('center_axis',(0.,1.,0.));
#294=DIRECTION('ref_axis',(-1.,0.,0.));
#295=DIRECTION('center_axis',(0.,1.,0.));
#296=DIRECTION('ref_axis',(-1.,0.,0.));
#297=DIRECTION('',(0.,-1.,0.));
#298=DIRECTION('center_axis',(0.,1.,0.));
#299=DIRECTION('ref_axis',(1.,0.,0.));
#300=DIRECTION('center_axis',(0.,1.,0.));
#301=DIRECTION('ref_axis',(1.,0.,0.));
#302=DIRECTION('center_axis',(1.,0.,0.));
#303=DIRECTION('ref_axis',(0.,0.,-1.));
#304=DIRECTION('center_axis',(1.,0.,0.));
#305=DIRECTION('ref_axis',(0.,1.,0.));
#306=DIRECTION('center_axis',(1.,0.,0.));
#307=DIRECTION('ref_axis',(0.,0.,-1.));
#308=DIRECTION('center_axis',(-1.,0.,0.));
#309=DIRECTION('ref_axis',(0.,1.,0.));
#310=DIRECTION('center_axis',(1.,0.,0.));
#311=DIRECTION('ref_axis',(0.,-0.999999997736286,-6.72861696022528E-5));
#312=DIRECTION('center_axis',(0.,-1.,0.));
#313=DIRECTION('ref_axis',(1.,0.,0.));
#314=DIRECTION('',(-0.707106781186545,-0.70710678118655,-8.65956056235491E-17));
#315=DIRECTION('center_axis',(0.,-1.,0.));
#316=DIRECTION('ref_axis',(1.,0.,0.));
#317=DIRECTION('center_axis',(0.,-1.,0.));
#318=DIRECTION('ref_axis',(0.,0.,-1.));
#319=DIRECTION('center_axis',(0.,1.,0.));
#320=DIRECTION('ref_axis',(1.,0.,0.));
#321=DIRECTION('center_axis',(0.,1.,0.));
#322=DIRECTION('ref_axis',(1.,0.,0.));
#323=DIRECTION('center_axis',(0.,-1.,0.));
#324=DIRECTION('ref_axis',(1.,0.,0.));
#325=DIRECTION('',(0.707106781186547,-0.707106781186548,-8.65956056235493E-17));
#326=DIRECTION('center_axis',(0.,-1.,0.));
#327=DIRECTION('ref_axis',(1.,0.,0.));
#328=DIRECTION('center_axis',(0.,1.,0.));
#329=DIRECTION('ref_axis',(-1.,0.,0.));
#330=DIRECTION('center_axis',(0.,1.,0.));
#331=DIRECTION('ref_axis',(1.,0.,0.));
#332=DIRECTION('center_axis',(0.,1.,0.));
#333=DIRECTION('ref_axis',(1.,0.,0.));
#334=DIRECTION('',(0.,-1.,0.));
#335=DIRECTION('center_axis',(0.,-1.,0.));
#336=DIRECTION('ref_axis',(1.,0.,0.));
#337=DIRECTION('',(0.707106781186547,0.707106781186548,8.65956056235493E-17));
#338=DIRECTION('center_axis',(0.,1.,0.));
#339=DIRECTION('ref_axis',(-1.,0.,0.));
#340=DIRECTION('center_axis',(0.,1.,0.));
#341=DIRECTION('ref_axis',(1.,0.,0.));
#342=DIRECTION('center_axis',(0.,1.,0.));
#343=DIRECTION('ref_axis',(1.,0.,0.));
#344=DIRECTION('',(0.,-1.,0.));
#345=CARTESIAN_POINT('',(0.,0.,0.));
#346=CARTESIAN_POINT('Origin',(-7.87821708285652,-2.01175310113407,0.));
#347=CARTESIAN_POINT('',(5.62178291714348,-2.01175310113407,-1.65327317884893E-15));
#348=CARTESIAN_POINT('Origin',(-7.87821708285652,-2.01175310113407,0.));
#349=CARTESIAN_POINT('',(-7.87821708285652,-2.01175310113407,13.1071067811865));
#350=CARTESIAN_POINT('Origin',(-7.87821708285652,-2.01175310113407,0.));
#351=CARTESIAN_POINT('Origin',(-7.87821708285652,-8.01175310113408,0.));
#352=CARTESIAN_POINT('',(-18.3782170828565,-8.01175310113408,1.28587913910472E-15));
#353=CARTESIAN_POINT('Origin',(-7.87821708285652,-8.01175310113408,0.));
#354=CARTESIAN_POINT('Origin',(-7.87821708285652,-2.26175310113409,0.));
#355=CARTESIAN_POINT('',(3.77178291714348,-2.26175310113409,-1.42671352100667E-15));
#356=CARTESIAN_POINT('',(-7.87821708285532,-2.26175310113409,11.65));
#357=CARTESIAN_POINT('Origin',(-7.87821708285652,-2.26175310113409,0.));
#358=CARTESIAN_POINT('Origin',(-7.87821708285524,-2.26175310113409,12.4));
#359=CARTESIAN_POINT('Origin',(-7.87821708285652,-2.26175310113409,0.));
#360=CARTESIAN_POINT('Origin',(-7.87821708285652,-2.51175310113407,0.));
#361=CARTESIAN_POINT('',(3.77178291714348,-3.51175310113408,-1.42671352100667E-15));
#362=CARTESIAN_POINT('',(3.77178291714348,-2.51175310113407,-1.42671352100667E-15));
#363=CARTESIAN_POINT('',(-19.5282170828565,-3.51175310113408,0.));
#364=CARTESIAN_POINT('Origin',(-7.87821708285652,-3.51175310113408,0.));
#365=CARTESIAN_POINT('Origin',(-7.87821708285652,-3.51175310113408,0.));
#366=CARTESIAN_POINT('Origin',(-6.87821708285652,39.699455713298,0.));
#367=CARTESIAN_POINT('',(-6.87821708285652,0.790444461914259,-7.94159612062469));
#368=CARTESIAN_POINT('',(-6.87821708285652,0.790444461914264,7.9415961206247));
#369=CARTESIAN_POINT('Ctrl Pts',(-6.87821708285652,0.790444461909599,-7.94159612062389));
#370=CARTESIAN_POINT('Ctrl Pts',(-6.87821708285652,1.25780597765397,-5.23860786722702));
#371=CARTESIAN_POINT('Ctrl Pts',(-6.87821708285851,1.4762281571669,-2.52275565713262));
#372=CARTESIAN_POINT('Ctrl Pts',(-6.87821708285851,1.47622815317601,2.52275570830929));
#373=CARTESIAN_POINT('Ctrl Pts',(-6.87821708285652,1.2578059734128,5.23860789199199));
#374=CARTESIAN_POINT('Ctrl Pts',(-6.87821708285652,0.790444461918383,7.94159612062542));
#375=CARTESIAN_POINT('Origin',(-6.87821708285652,39.699455713298,0.));
#376=CARTESIAN_POINT('Origin',(-8.87821708285652,39.699455713298,0.));
#377=CARTESIAN_POINT('',(-8.87821708285652,0.790444461914264,7.9415961206247));
#378=CARTESIAN_POINT('',(-8.87821708285652,0.790444461914259,-7.94159612062469));
#379=CARTESIAN_POINT('Ctrl Pts',(-8.87821708285652,0.790444461918197,7.94159612062537));
#380=CARTESIAN_POINT('Ctrl Pts',(-8.87821708285652,1.25780597341111,5.23860789200593));
#381=CARTESIAN_POINT('Ctrl Pts',(-8.87821708285851,1.4762281530188,2.52275570822046));
#382=CARTESIAN_POINT('Ctrl Pts',(-8.87821708285851,1.4762281570097,-2.52275565704378));
#383=CARTESIAN_POINT('Ctrl Pts',(-8.87821708285652,1.25780597765228,-5.23860786724096));
#384=CARTESIAN_POINT('Ctrl Pts',(-8.87821708285652,0.790444461909412,-7.94159612062385));
#385=CARTESIAN_POINT('Origin',(-8.87821708285652,39.699455713298,0.));
#386=CARTESIAN_POINT('Origin',(-7.87821708285652,39.699455713298,0.));
#387=CARTESIAN_POINT('',(-7.87821709042317,0.796338014279647,-7.97041647592814));
#388=CARTESIAN_POINT('Ctrl Pts',(-8.87821708285571,0.790444461911601,-7.94159612061129));
#389=CARTESIAN_POINT('Ctrl Pts',(-8.60474813687302,0.793667838383469,-7.95738871312124));
#390=CARTESIAN_POINT('Ctrl Pts',(-8.33069921063556,0.795574149455038,-7.96668770676342));
#391=CARTESIAN_POINT('Ctrl Pts',(-7.99712693962437,0.796275526439384,-7.97011149485897));
#392=CARTESIAN_POINT('Ctrl Pts',(-7.93766464361501,0.79633801427434,-7.97041647590222));
#393=CARTESIAN_POINT('Ctrl Pts',(-7.87821709042317,0.796338014279645,-7.97041647592812));
#394=CARTESIAN_POINT('Ctrl Pts',(-6.87821708285585,0.790444461916588,7.94159612063573));
#395=CARTESIAN_POINT('Ctrl Pts',(-7.21176144020086,0.794375946824185,7.96085801562266));
#396=CARTESIAN_POINT('Ctrl Pts',(-7.5454304486156,0.796338014314501,7.9704164760983));
#397=CARTESIAN_POINT('Ctrl Pts',(-7.87821709042317,0.796338014284803,7.97041647595335));
#398=CARTESIAN_POINT('Ctrl Pts',(-8.21236552473431,0.796338014254984,7.9704164758078));
#399=CARTESIAN_POINT('Ctrl Pts',(-8.54599897556955,0.794360314324364,7.96078142584119));
#400=CARTESIAN_POINT('Ctrl Pts',(-8.87821708285716,0.790444461916482,7.94159612063521));
#401=CARTESIAN_POINT('Ctrl Pts',(-7.87821709042317,0.796338014279646,-7.97041647592813));
#402=CARTESIAN_POINT('Ctrl Pts',(-7.54411671859573,0.796338014309461,-7.97041647607366));
#403=CARTESIAN_POINT('Ctrl Pts',(-7.21048199173149,0.794360865946927,-7.96078412845689));
#404=CARTESIAN_POINT('Ctrl Pts',(-6.87821708857821,0.790444461979137,-7.94159612094218));
#405=CARTESIAN_POINT('Origin',(-7.87821708285652,-8.26175310113408,0.));
#406=CARTESIAN_POINT('',(-18.8782170828565,-8.51175310113408,-1.34711147906209E-15));
#407=CARTESIAN_POINT('',(-18.6282170828565,-8.26175310113408,-1.3164953090834E-15));
#408=CARTESIAN_POINT('Origin',(-7.87821708285652,-8.51175310113408,0.));
#409=CARTESIAN_POINT('Origin',(-20.3782170828565,-8.51175310113408,0.));
#410=CARTESIAN_POINT('',(-19.5282170828565,-8.51175310113408,1.42671352100667E-15));
#411=CARTESIAN_POINT('Origin',(-7.87821708285652,-8.51175310113408,0.));
#412=CARTESIAN_POINT('Origin',(-7.87821708285652,-8.08675310113408,0.));
#413=CARTESIAN_POINT('',(4.62178291714348,-7.66175310113408,-1.53080849893419E-15));
#414=CARTESIAN_POINT('',(-20.3782170828565,-7.66175310113408,1.53080849893419E-15));
#415=CARTESIAN_POINT('Origin',(-7.87821708285652,-7.66175310113408,0.));
#416=CARTESIAN_POINT('',(-19.9532170828565,-8.08675310113408,1.47876100997043E-15));
#417=CARTESIAN_POINT('Origin',(-7.87821708285652,-7.66175310113408,0.));
#418=CARTESIAN_POINT('Origin',(-7.87821708285652,-6.01175310113408,0.));
#419=CARTESIAN_POINT('',(-20.3782170828565,-4.36175310113408,1.53080849893419E-15));
#420=CARTESIAN_POINT('',(4.62178291714348,-4.36175310113408,-1.53080849893419E-15));
#421=CARTESIAN_POINT('Origin',(-7.87821708285652,-4.36175310113408,0.));
#422=CARTESIAN_POINT('Origin',(-7.87821708285652,-4.36175310113408,0.));
#423=CARTESIAN_POINT('',(4.62178291714348,-6.01175310113408,-1.53080849893419E-15));
#424=CARTESIAN_POINT('Origin',(-7.87821708285652,-3.93675310113407,0.));
#425=CARTESIAN_POINT('',(-19.9532170828565,-3.93675310113407,-1.47876100997043E-15));
#426=CARTESIAN_POINT('Origin',(-7.87821708285652,-1.26175310113407,0.));
#427=CARTESIAN_POINT('',(-7.87821708285652,-0.511753101134076,-13.5));
#428=CARTESIAN_POINT('',(5.62178291714348,-0.511753101134074,-1.65327317884893E-15));
#429=CARTESIAN_POINT('Origin',(-7.87821708285652,-0.511753101134074,0.));
#430=CARTESIAN_POINT('Origin',(-7.87821708285652,-0.511753101134074,0.));
#431=CARTESIAN_POINT('',(5.62178291714348,-1.26175310113407,-1.65327317884893E-15));
#432=CARTESIAN_POINT('Ctrl Pts',(-7.87821709020758,-0.511753101427512,-13.500000001008));
#433=CARTESIAN_POINT('Ctrl Pts',(-21.3782171265416,-0.511753103652564,-13.500000001008));
#434=CARTESIAN_POINT('Ctrl Pts',(-21.3782171265416,-0.511753114330787,3.53260602966499E-8));
#435=CARTESIAN_POINT('Ctrl Pts',(-21.3782171265416,-0.51175312500901,13.5000000716601));
#436=CARTESIAN_POINT('Ctrl Pts',(-7.87821709020758,-0.511753122783958,13.5000000716601));
#437=CARTESIAN_POINT('Ctrl Pts',(5.62178294612649,-0.511753120558906,13.5000000716601));
#438=CARTESIAN_POINT('Ctrl Pts',(5.62178294612649,-0.511753109880683,3.53260603001698E-8));
#439=CARTESIAN_POINT('Ctrl Pts',(5.62178294612649,-0.51175309920246,-13.500000001008));
#440=CARTESIAN_POINT('Ctrl Pts',(-7.87821709020758,-0.511753101427512,-13.500000001008));
#441=CARTESIAN_POINT('Ctrl Pts',(-7.87821709051138,1.33153409193664,-7.38507082992395));
#442=CARTESIAN_POINT('Ctrl Pts',(-15.2632879572194,1.33153409071944,-7.38507082992395));
#443=CARTESIAN_POINT('Ctrl Pts',(-15.2632879572194,1.331534084878,3.67840627421134E-8));
#444=CARTESIAN_POINT('Ctrl Pts',(-15.2632879572194,1.33153407903655,7.38507090349208));
#445=CARTESIAN_POINT('Ctrl Pts',(-7.87821709051138,1.33153408025375,7.38507090349208));
#446=CARTESIAN_POINT('Ctrl Pts',(-0.493146223803368,1.33153408147095,7.38507090349208));
#447=CARTESIAN_POINT('Ctrl Pts',(-0.493146223803367,1.33153408731239,3.6784062744039E-8));
#448=CARTESIAN_POINT('Ctrl Pts',(-0.493146223803368,1.33153409315384,-7.38507082992395));
#449=CARTESIAN_POINT('Ctrl Pts',(-7.87821709051138,1.33153409193664,-7.38507082992395));
#450=CARTESIAN_POINT('Ctrl Pts',(-7.87821709053523,1.47622815605784,-0.999999955422775));
#451=CARTESIAN_POINT('Ctrl Pts',(-8.87821708285652,1.47622815589302,-0.999999955422775));
#452=CARTESIAN_POINT('Ctrl Pts',(-8.87821708285652,1.47622815510204,3.68985127900068E-8));
#453=CARTESIAN_POINT('Ctrl Pts',(-8.87821708285652,1.47622815431107,1.0000000292198));
#454=CARTESIAN_POINT('Ctrl Pts',(-7.87821709053523,1.47622815447589,1.0000000292198));
#455=CARTESIAN_POINT('Ctrl Pts',(-6.87821709821394,1.47622815464071,1.0000000292198));
#456=CARTESIAN_POINT('Ctrl Pts',(-6.87821709821394,1.47622815543168,3.68985127902675E-8));
#457=CARTESIAN_POINT('Ctrl Pts',(-6.87821709821394,1.47622815622266,-0.999999955422775));
#458=CARTESIAN_POINT('Ctrl Pts',(-7.87821709053523,1.47622815605784,-0.999999955422775));
#459=CARTESIAN_POINT('Ctrl Pts',(-7.87821709020758,-0.511753101427512,-13.500000001008));
#460=CARTESIAN_POINT('Ctrl Pts',(-7.87821709034297,0.309727365611533,-10.7748170292732));
#461=CARTESIAN_POINT('Ctrl Pts',(-7.87821709042317,0.796338014284468,-7.97041647590041));
#462=UNCERTAINTY_MEASURE_WITH_UNIT(LENGTH_MEASURE(0.01),#466,
'DISTANCE_ACCURACY_VALUE',
'Maximum model space distance between geometric entities at asserted c
onnectivities');
#463=UNCERTAINTY_MEASURE_WITH_UNIT(LENGTH_MEASURE(0.01),#466,
'DISTANCE_ACCURACY_VALUE',
'Maximum model space distance between geometric entities at asserted c
onnectivities');
#464=(
GEOMETRIC_REPRESENTATION_CONTEXT(3)
GLOBAL_UNCERTAINTY_ASSIGNED_CONTEXT((#462))
GLOBAL_UNIT_ASSIGNED_CONTEXT((#466,#468,#469))
REPRESENTATION_CONTEXT('','3D')
);
#465=(
GEOMETRIC_REPRESENTATION_CONTEXT(3)
GLOBAL_UNCERTAINTY_ASSIGNED_CONTEXT((#463))
GLOBAL_UNIT_ASSIGNED_CONTEXT((#466,#468,#469))
REPRESENTATION_CONTEXT('','3D')
);
#466=(
LENGTH_UNIT()
NAMED_UNIT(*)
SI_UNIT(.MILLI.,.METRE.)
);
#467=(
LENGTH_UNIT()
NAMED_UNIT(*)
SI_UNIT(.CENTI.,.METRE.)
);
#468=(
NAMED_UNIT(*)
PLANE_ANGLE_UNIT()
SI_UNIT($,.RADIAN.)
);
#469=(
NAMED_UNIT(*)
SI_UNIT($,.STERADIAN.)
SOLID_ANGLE_UNIT()
);
#470=SHAPE_DEFINITION_REPRESENTATION(#471,#472);
#471=PRODUCT_DEFINITION_SHAPE('',$,#474);
#472=SHAPE_REPRESENTATION('',(#243),#464);
#473=PRODUCT_DEFINITION_CONTEXT('part definition',#478,'design');
#474=PRODUCT_DEFINITION('\X2\0414043504420430043B044C\X0\10',
'\X2\0413041E04240420041E041C041004220418041A\X0\ \X2\04170420\X0\1-\X2\041B0420\X0\-
M',#475,#473);
#475=PRODUCT_DEFINITION_FORMATION('',$,#480);
#476=PRODUCT_RELATED_PRODUCT_CATEGORY(
'\X2\0413041E04240420041E041C041004220418041A\X0\ \X2\04170420\X0\1-\X2\041B0420\X0\-
M','\X2\0413041E04240420041E041C041004220418041A\X0\ \X2\04170420\X0\1
-\X2\041B0420\X0\-M',(#480));
#477=APPLICATION_PROTOCOL_DEFINITION('international standard',
'automotive_design',2009,#478);
#478=APPLICATION_CONTEXT(
'Core Data for Automotive Mechanical Design Process');
#479=PRODUCT_CONTEXT('part definition',#478,'mechanical');
#480=PRODUCT('\X2\0414043504420430043B044C\X0\10',
'\X2\0413041E04240420041E041C041004220418041A\X0\ \X2\04170420\X0\1-\X2\041B0420\X0\-
M',$,(#479));
#481=PRESENTATION_STYLE_ASSIGNMENT((#482));
#482=SURFACE_STYLE_USAGE(.BOTH.,#485);
#483=SURFACE_STYLE_RENDERING_WITH_PROPERTIES($,#489,(#484));
#484=SURFACE_STYLE_TRANSPARENT(0.);
#485=SURFACE_SIDE_STYLE('',(#486,#483));
#486=SURFACE_STYLE_FILL_AREA(#487);
#487=FILL_AREA_STYLE('',(#488));
#488=FILL_AREA_STYLE_COLOUR('',#489);
#489=COLOUR_RGB('',0.749019607843137,0.749019607843137,0.749019607843137);
ENDSEC;
END-ISO-10303-21;
